Fa# / F#


Mi / E


Si / B


Do#7 / C#7


La / A


Do# / C#


Dom# / Cm#



El contenido de esta página requiere una versión más reciente de Adobe Flash Player.

Obtener Adobe Flash Player

Inicio Descargas Canciones Acordes Gratis Videos Tutoriales Blog Clases Contactanos



Encontrá acordes gratis de tus artistas favoritos.
CLICK AQUÍ

SUSCRIBITE
Ingresá tu correo para recibir todas las novedades de tocandolaguitarra.com en tu casilla de E-mail.
SUMATE
¡Tocando la guitarra también está en Facebook, Twitter y YouTube!

Tocando la guitarra en facebook, seguinos en facebook, facebook.com/tocandolaguitarra, descarga de partituras de guitarra, partituras online, letras de canciones, videos, partituras de guitarra Tocando la guitarra en twitter, seguinos en twitter, twitter.com/#!/tocalaguitarra, descarga de partituras de guitarra, partituras online, letras de canciones, videos, partituras de guitarra Tocando la guitarra en yuotube, seguinos en yuotube, youtube.com/tocandolaguitarra, descarga de partituras de guitarra, partituras online, letras de canciones, videos, partituras de guitarra
Letras de canciones de tus artistas favoritos, letras de canciones

GUNS AND ROSES - ROCKET QUEEN

If I
F#
Say I don't need anyone
E
And say these things to you 'just
E
I can turn on anyone
F#
Just like I've turned on you I've got a

B
Tongue like a Razor.
B
A sweetwitch blade knife
C#7
And I can do you favors
C#7
But then you'll do whatever I like!

-Chorus:
F#
Here I am.
E
And you're a Rocket Queen.
A
I might be a little young
B    F#
But honey I ain't naive.

F#
Here I am
E
And you're a Rocket Queen, oh yeah.
A
I might be a little young
B    F#
But honey I ain't naive.

-BREAK:    F#    E

-Interlude:    F#    [repeat]

-VERSES:
F#
I've seen everything imaginable
E
Pass before these eyes
E
I've had everything that's tangible
F#
Honey you'd be surprised
A
I'm a sexual innuendo
A
In this burned out paradise
C#7
If you turn me on to anything
C#7
You better turn me on tonight

-Chorus:
F#
Here I am .
E
And I'm your Rocket Queen
A
I might be a little young
B    F#
But honey I ain't naive.

F#
Here I am
E
And you're a Rocket Queen, oh yeah.
A
I might be a little young
B    F#
But honey I ain't naive.

-SOLO CHORDS:    F#    E    E    F#    | Repeat / Repetir

-Modulation Part of the harmony in the Solo/Primera Parte de Modulación de la armonía en el solo:
    A    A    B    B

-Second Modulation/Segunda modulación del solo:
    C#    C#    C#    C#

 

-Chorus:
F#
Here I am
E
And you're a Rocket Queen
A
I might be a little young
B    F#
But honey I ain't naive.

F#
Here I am
E
And you're a Rocket Queen, oh yeah.
A
I might be a little young
B    F#
But honey I ain't naive.
-Break:    F#5    F#5

-Final Chords/Acordes Finales:

    E    B    Cm#    E    A    B    | Ésta secuencia de acordes se usa hasta que la canción termina.

Riff último (por si las dudas):

eb/------------0-----------0--------|-----0--------0-----------|
Bb/---------------9-----------7-----|--------5--------5-----0--|
Gb/---------9--------9--8--------6--|--L--------6--------6-----|
Db/---------------------------------|--------------------------|
Ab/---------------------------------|--------------------------|
Eb/---------------------------------|--------------------------|

|-----0-----------0--------|-----0--------0--0--------|
|--------9-----------7-----|--------7--------------7--|
|--9--------9--8--------8--|--L--------8--------8-----|
|--------------------------|--------------------------|
|--------------------------|--------------------------|
|--------------------------|--------------------------|

*All notes are eights / Todas las notas son corcheas.

-----0-----------0--------|--------0--------0--------|
--------9-----------7-----|-----5--------------0-----|
--9--------9--8--------6--|--L--------6--4--------6--|
--------------------------|--------------------------|
--------------------------|--------------------------|
--------------------------|--------------------------|

|-----0-----------0--------|-----0--------0--0--------||
|--------9-----------7-----|-----------4--------4-----||
|--9--------9--8--------4--|--L-----4--------------4-:|| [REPEAT]
|--------------------------|--------------------------||
|--------------------------|--------------------------||
|--------------------------|--------------------------||

E    B    Cm#    B
I see you standing
E    A    B
Standing on your own
E    B    Cm#    B    E
It's such a lonely place for you
F#    B
For you to be

E    B    Cm#    B
If you need a shoulder
E    A    B
Or if you need a friend
E    B    Cm#
I'll be here standing
E    F#
Until the bitter end

E    B    Cm#
NO one needs the sorrow!
E    A    B
No one needs the pain!

E    B    Cm#
I hate to see you,
E
Walking out there,
A    B
Out in the rain.

E    B    Cm#    B
So don't chastise me!
E    A    B
Or think I, I mean you harm!
E    B    Cm#
Of those that take you
E    A
Leave you strung out
B
Much too far
Baby-yeah

-Acordes de último solo, se repiten hasta que termina la canción.
    E    B    Cm#    E    A    B

"Don't ever leave me
Say you'll always be there
All I ever wanted
Was for you
To / know / that / I / care..."

 

------------------------------------------------------------------------------------
SUBÍ LA VERSIÓN DE TU TEMA FAVORITO HACIENDOCLIC AQUÍ

DESCARGAS PREMUIM

Para obtener partituras completas de tus artistas favoritos, con diferentes niveles de dificultad y toda la información necesaria para tocar con guitarra: acordes, rasguidos de acompañamiento y punteos con la digitación de ambas manos, haz clic aquí
INICIO | DESCARGAS | CANCIONES | ACORDES GRATIS | VIDEOS | TUTORIALES | BLOG | CLASES | CONTACTANOS
tocandolaguitarra.com | info@tocandolaguitarra.com | Mendoza - Argentina
Desarrollado por
COLLUTION